String skipping

Da Wikiversità, l'apprendimento libero.
Jump to navigation Jump to search
lezione
String skipping
Tipo di risorsa Tipo: lezione
Materia di appartenenza Materia: Chitarra
Avanzamento Avanzamento: lezione completa al 00%.

Che cos'è lo string skipping (o salti di corda)[modifica]

Lo string skipping in italiano si può tradurre con "salti di corda" poiché si andranno a suonare corde distanti tra di loro, ovvero quando si suona su corde non adiacenti fra loro. Si possono avere salti di corda di una, due, tre o quattro corde. Non è una tecnica molto semplice o immediata, richiederà un po' di studio e pratica ed è un tipo di tecnica che aiuterà molto la coordinazione della mano destra con la sinistra. Ad ogni modo sarà bene iniziare saltando una sola corda e continuare saltandone un numero sempre maggiore.


Inkscape icons free-hand-draw.svgEsercizio 1[modifica]

String Skipping -1.png

Inkscape icons free-hand-draw.svgEsercizio 2[modifica]

String Skipping D-Moll.png

Inkscape icons free-hand-draw.svgEsercizio 3[modifica]

String Skipping Dmb5.png

Inkscape icons free-hand-draw.svgEsercizio 4[modifica]

String Skipping D-Dur.png

Inkscape icons free-hand-draw.svgEsercizio 5: String skipping con la pentatonica[modifica]

Pentatonik String Skipping -1.png

Inkscape icons free-hand-draw.svgEsercizio 6[modifica]

 e------------------------5---------------||
 B--5--------------8----------------------||
 G---------5-----------------7------------||
 D-----7--------------7-------------------||
 A-------------7--------------------------||
 E----------------------------------------||



Inkscape icons free-hand-draw.svgEsercizio 7[modifica]

Basic-Picking 1a

Inkscape icons free-hand-draw.svgEsercizio 8[modifica]

 e-12-13-15-------------------------------|
 B-------------------12-14-15-------------|
 G----------12-13-15----------------------|
 D----------------------------12-14-15----|
 A----------------------------------------|
 E----------------------------------------|